e------------------------------------------------------------------
B-----------------------------------------------------------------
G----7--7-----------------------7--7----7--7-----7--7---7--7--
D----8--8-------------5--3-----8--8----8--8-----8--8---8--8--
A----------------5--6---------------------------------------------____x2
E-6--------6--8-------------6---------6--------6-------6--------


e---------------------------------------------------------------------
B---------------------------------------------4------------------------
G----10-10----10-10---------------5--5------5----5--5-----5--5--
D----10-10----10-10---------------5--5-----------5--5-----5--5---
A--8---------8----------8--6--5--3-------3------3--------3---------
E-----------------------------------------------------------------------


e------------------------------------------------------------------
B-----------------------------------------------------------------
G----7--7-----------------------7--7----7--7-----7--7---7--7--
D----8--8-------------5--3-----8--8----8--8-----8--8---8--8--
A----------------5--6---------------------------------------------
E-6--------6--8-------------6---------6--------6-------6--------


Capo on 3 possibly?

If preferred I think the chords are simply:
G C G
D Em Am
G C G